ISO-10303-21;
HEADER;
FILE_DESCRIPTION (( 'STEP AP203' ),
    '1' );
FILE_NAME ('Q-OZHWP-R2-20-488-M.STEP',
    '2020-12-22T09:16:38',
    ( '' ),
    ( '' ),
    'SwSTEP 2.0',
    'SolidWorks 2020',
    '' );
FILE_SCHEMA (( 'CONFIG_CONTROL_DESIGN' ));
ENDSEC;

DATA;
#1 = DIRECTION ( 'NONE',  ( -0.000000000000000000, 0.000000000000000000, 1.000000000000000000 ) ) ;
#2 = DIRECTION ( 'NONE',  ( 1.000000000000000000, 0.000000000000000000, 0.000000000000000000 ) ) ;
#3 = APPROVAL_ROLE ( '' ) ;
#4 = CARTESIAN_POINT ( 'NONE',  ( 3.000000000000000000, 0.000000000000000000, 12.69999999999999929 ) ) ;
#5 = AXIS2_PLACEMENT_3D ( 'NONE', #270, #39, #137 ) ;
#6 = CARTESIAN_POINT ( 'NONE',  ( 2.500000000000000444, 10.00000000000000000, 0.000000000000000000 ) ) ;
#7 = PERSON_AND_ORGANIZATION ( #222, #125 ) ;
#8 = EDGE_CURVE ( 'NONE', #177, #217, #104, .T. ) ;
#9 = FACE_OUTER_BOUND ( 'NONE', #230, .T. ) ;
#10 = LINE ( 'NONE', #225, #11 ) ;
#11 = VECTOR ( 'NONE', #298, 1000.000000000000000 ) ;
#12 = CARTESIAN_POINT ( 'NONE',  ( 3.000000000000000000, 1.555301434917138433E-15, -12.69999999999999929 ) ) ;
#13 = DIRECTION ( 'NONE',  ( -1.000000000000000000, -0.000000000000000000, -0.000000000000000000 ) ) ;
#14 = ADVANCED_FACE ( 'NONE', ( #267 ), #33, .F. ) ;
#15 = DIRECTION ( 'NONE',  ( 1.000000000000000000, 0.000000000000000000, 0.000000000000000000 ) ) ;
#16 = PRODUCT ( 'Q-OZHWP-R2-20-488-M', 'Q-OZHWP-R2-20-488-M', '', ( #175 ) ) ;
#17 = DIRECTION ( 'NONE',  ( -1.000000000000000000, -0.000000000000000000, -0.000000000000000000 ) ) ;
#18 = ORIENTED_EDGE ( 'NONE', *, *, #186, .T. ) ;
#19 = VERTEX_POINT ( 'NONE', #212 ) ;
#20 = EDGE_CURVE ( 'NONE', #127, #148, #263, .T. ) ;
#21 = AXIS2_PLACEMENT_3D ( 'NONE', #191, #27, #134 ) ;
#22 = PERSON_AND_ORGANIZATION ( #222, #125 ) ;
#23 = ORIENTED_EDGE ( 'NONE', *, *, #200, .T. ) ;
#24 = ORIENTED_EDGE ( 'NONE', *, *, #20, .F. ) ;
#25 = EDGE_CURVE ( 'NONE', #205, #207, #84, .T. ) ;
#26 = COORDINATED_UNIVERSAL_TIME_OFFSET ( 8, 0, .AHEAD. ) ;
#27 = DIRECTION ( 'NONE',  ( -1.000000000000000000, -0.000000000000000000, -0.000000000000000000 ) ) ;
#28 = AXIS2_PLACEMENT_3D ( 'NONE', #245, #325, #321 ) ;
#29 = APPROVAL_PERSON_ORGANIZATION ( #187, #293, #3 ) ;
#30 = DIRECTION ( 'NONE',  ( 0.000000000000000000, 0.000000000000000000, 1.000000000000000000 ) ) ;
#31 = CALENDAR_DATE ( 2020, 22, 12 ) ;
#32 = CARTESIAN_POINT ( 'NONE',  ( 2.500000000000000888, 0.000000000000000000, 0.000000000000000000 ) ) ;
#33 = CYLINDRICAL_SURFACE ( 'NONE', #211, 10.00000000000000000 ) ;
#34 = PRODUCT_RELATED_PRODUCT_CATEGORY ( 'detail', '', ( #16 ) ) ;
#35 = PERSON_AND_ORGANIZATION_ROLE ( 'classification_officer' ) ;
#36 = DIRECTION ( 'NONE',  ( 1.000000000000000000, 0.000000000000000000, 0.000000000000000000 ) ) ;
#37 = CYLINDRICAL_SURFACE ( 'NONE', #130, 10.00000000000000000 ) ;
#38 = ADVANCED_FACE ( 'NONE', ( #85, #290 ), #265, .F. ) ;
#39 = DIRECTION ( 'NONE',  ( -1.000000000000000000, -0.000000000000000000, -0.000000000000000000 ) ) ;
#40 = PLANE ( 'NONE',  #107 ) ;
#41 = EDGE_CURVE ( 'NONE', #19, #148, #77, .T. ) ;
#42 = CARTESIAN_POINT ( 'NONE',  ( -3.000000000000000444, 0.000000000000000000, 0.000000000000000000 ) ) ;
#43 = LOCAL_TIME ( 17, 16, 38.00000000000000000, #250 ) ;
#44 = CC_DESIGN_PERSON_AND_ORGANIZATION_ASSIGNMENT ( #286, #150, ( #16 ) ) ;
#45 = APPROVAL_ROLE ( '' ) ;
#46 = EDGE_LOOP ( 'NONE', ( #160, #48, #287, #153 ) ) ;
#47 = VERTEX_POINT ( 'NONE', #4 ) ;
#48 = ORIENTED_EDGE ( 'NONE', *, *, #331, .T. ) ;
#49 = AXIS2_PLACEMENT_3D ( 'NONE', #269, #248, #91 ) ;
#50 = DESIGN_CONTEXT ( 'detailed design', #255, 'design' ) ;
#51 = AXIS2_PLACEMENT_3D ( 'NONE', #312, #292, #106 ) ;
#52 = COORDINATED_UNIVERSAL_TIME_OFFSET ( 8, 0, .AHEAD. ) ;
#53 = EDGE_LOOP ( 'NONE', ( #260, #305, #95, #97 ) ) ;
#54 = DIRECTION ( 'NONE',  ( 1.000000000000000000, 0.000000000000000000, 0.000000000000000000 ) ) ;
#55 = SECURITY_CLASSIFICATION ( '', '', #93 ) ;
#56 = CC_DESIGN_PERSON_AND_ORGANIZATION_ASSIGNMENT ( #333, #100, ( #309 ) ) ;
#57 = CARTESIAN_POINT ( 'NONE',  ( -2.500000000000000444, 0.000000000000000000, 10.00000000000000000 ) ) ;
#58 = DIRECTION ( 'NONE',  ( 0.000000000000000000, 0.000000000000000000, -1.000000000000000000 ) ) ;
#59 = DIRECTION ( 'NONE',  ( 0.000000000000000000, 0.000000000000000000, 1.000000000000000000 ) ) ;
#60 = CARTESIAN_POINT ( 'NONE',  ( -1.614212418857619014, 1.224646799147353256E-15, -10.00000000000000000 ) ) ;
#61 = CIRCLE ( 'NONE', #156, 10.00000000000000000 ) ;
#62 = ADVANCED_FACE ( 'NONE', ( #110 ), #158, .F. ) ;
#63 = CARTESIAN_POINT ( 'NONE',  ( -1.614212418857619014, 1.224646799147353256E-15, -10.00000000000000000 ) ) ;
#64 = FACE_OUTER_BOUND ( 'NONE', #46, .T. ) ;
#65 = CARTESIAN_POINT ( 'NONE',  ( -1.614212418857619014, 0.000000000000000000, 0.000000000000000000 ) ) ;
#66 = CIRCLE ( 'NONE', #51, 10.00000000000000000 ) ;
#67 = FACE_OUTER_BOUND ( 'NONE', #202, .T. ) ;
#68 = DIRECTION ( 'NONE',  ( 0.000000000000000000, 0.000000000000000000, 1.000000000000000000 ) ) ;
#69 = DATE_TIME_ROLE ( 'creation_date' ) ;
#70 = AXIS2_PLACEMENT_3D ( 'NONE', #221, #15, #117 ) ;
#71 = EDGE_LOOP ( 'NONE', ( #311, #229 ) ) ;
#72 = EDGE_LOOP ( 'NONE', ( #203, #210 ) ) ;
#73 = DATE_AND_TIME ( #300, #266 ) ;
#74 = ORIENTED_EDGE ( 'NONE', *, *, #244, .T. ) ;
#75 = EDGE_CURVE ( 'NONE', #148, #19, #268, .T. ) ;
#76 = EDGE_LOOP ( 'NONE', ( #18, #180 ) ) ;
#77 = CIRCLE ( 'NONE', #21, 10.00000000000000000 ) ;
#78 = CLOSED_SHELL ( 'NONE', ( #227, #296, #204, #62, #147, #14, #38, #208, #193, #313 ) ) ;
#79 = CARTESIAN_POINT ( 'NONE',  ( -1.614212418857619014, 0.000000000000000000, 0.000000000000000000 ) ) ;
#80 = CARTESIAN_POINT ( 'NONE',  ( -2.500000000000000444, 0.000000000000000000, 0.000000000000000000 ) ) ;
#81 = CIRCLE ( 'NONE', #49, 12.69999999999999929 ) ;
#82 = DATE_TIME_ROLE ( 'classification_date' ) ;
#83 = DIRECTION ( 'NONE',  ( -1.000000000000000000, -0.000000000000000000, -0.000000000000000000 ) ) ;
#84 = LINE ( 'NONE', #60, #176 ) ;
#85 = FACE_BOUND ( 'NONE', #326, .T. ) ;
#86 = VECTOR ( 'NONE', #88, 1000.000000000000000 ) ;
#87 = CC_DESIGN_APPROVAL ( #293, ( #55 ) ) ;
#88 = DIRECTION ( 'NONE',  ( -1.000000000000000000, -0.000000000000000000, -0.000000000000000000 ) ) ;
#89 = DIRECTION ( 'NONE',  ( -1.000000000000000000, -0.000000000000000000, -0.000000000000000000 ) ) ;
#90 =( GEOMETRIC_REPRESENTATION_CONTEXT ( 3 ) GLOBAL_UNCERTAINTY_ASSIGNED_CONTEXT ( ( #306 ) ) GLOBAL_UNIT_ASSIGNED_CONTEXT ( ( #128, #201, #252 ) ) REPRESENTATION_CONTEXT ( 'NONE', 'WORKASPACE' ) );
#91 = DIRECTION ( 'NONE',  ( 0.000000000000000000, 0.000000000000000000, 1.000000000000000000 ) ) ;
#92 = CARTESIAN_POINT ( 'NONE',  ( -1.614212418857619014, 0.000000000000000000, 0.000000000000000000 ) ) ;
#93 = SECURITY_CLASSIFICATION_LEVEL ( 'unclassified' ) ;
#94 = EDGE_CURVE ( 'NONE', #251, #127, #66, .T. ) ;
#95 = ORIENTED_EDGE ( 'NONE', *, *, #8, .T. ) ;
#96 = PERSON_AND_ORGANIZATION ( #222, #125 ) ;
#97 = ORIENTED_EDGE ( 'NONE', *, *, #272, .T. ) ;
#98 = APPROVAL_STATUS ( 'not_yet_approved' ) ;
#99 = ORIENTED_EDGE ( 'NONE', *, *, #200, .F. ) ;
#100 = PERSON_AND_ORGANIZATION_ROLE ( 'creator' ) ;
#101 = ORIENTED_EDGE ( 'NONE', *, *, #41, .T. ) ;
#102 = COORDINATED_UNIVERSAL_TIME_OFFSET ( 8, 0, .AHEAD. ) ;
#103 = DIRECTION ( 'NONE',  ( 0.000000000000000000, 0.000000000000000000, -1.000000000000000000 ) ) ;
#104 = LINE ( 'NONE', #314, #157 ) ;
#105 = CALENDAR_DATE ( 2020, 22, 12 ) ;
#106 = DIRECTION ( 'NONE',  ( 0.000000000000000000, 0.000000000000000000, 1.000000000000000000 ) ) ;
#107 = AXIS2_PLACEMENT_3D ( 'NONE', #323, #168, #273 ) ;
#108 = DIRECTION ( 'NONE',  ( -1.000000000000000000, 0.000000000000000000, -0.000000000000000000 ) ) ;
#109 = CC_DESIGN_DATE_AND_TIME_ASSIGNMENT ( #310, #69, ( #320 ) ) ;
#110 = FACE_OUTER_BOUND ( 'NONE', #71, .T. ) ;
#111 = FACE_OUTER_BOUND ( 'NONE', #235, .T. ) ;
#112 = EDGE_CURVE ( 'NONE', #127, #251, #183, .T. ) ;
#113 = AXIS2_PLACEMENT_3D ( 'NONE', #140, #116, #275 ) ;
#114 = FACE_OUTER_BOUND ( 'NONE', #332, .T. ) ;
#115 = APPROVAL ( #98, 'UNSPECIFIED' ) ;
#116 = DIRECTION ( 'NONE',  ( -1.000000000000000000, -0.000000000000000000, -0.000000000000000000 ) ) ;
#117 = DIRECTION ( 'NONE',  ( 0.000000000000000000, 0.000000000000000000, -1.000000000000000000 ) ) ;
#118 = VECTOR ( 'NONE', #17, 1000.000000000000000 ) ;
#119 = CC_DESIGN_SECURITY_CLASSIFICATION ( #55, ( #309 ) ) ;
#120 = DIRECTION ( 'NONE',  ( -1.000000000000000000, -0.000000000000000000, -0.000000000000000000 ) ) ;
#121 = PERSON_AND_ORGANIZATION ( #222, #125 ) ;
#122 = ORIENTED_EDGE ( 'NONE', *, *, #224, .F. ) ;
#123 = COORDINATED_UNIVERSAL_TIME_OFFSET ( 8, 0, .AHEAD. ) ;
#124 = ORIENTED_EDGE ( 'NONE', *, *, #8, .F. ) ;
#125 = ORGANIZATION ( 'UNSPECIFIED', 'UNSPECIFIED', '' ) ;
#126 = EDGE_LOOP ( 'NONE', ( #259, #257 ) ) ;
#127 = VERTEX_POINT ( 'NONE', #136 ) ;
#128 =( LENGTH_UNIT ( ) NAMED_UNIT ( * ) SI_UNIT ( .MILLI., .METRE. ) );
#129 = ORIENTED_EDGE ( 'NONE', *, *, #75, .T. ) ;
#130 = AXIS2_PLACEMENT_3D ( 'NONE', #65, #89, #68 ) ;
#131 = CARTESIAN_POINT ( 'NONE',  ( 2.999999999999999112, 0.000000000000000000, 0.000000000000000000 ) ) ;
#132 = DATE_AND_TIME ( #31, #277 ) ;
#133 = DIRECTION ( 'NONE',  ( -1.000000000000000000, -0.000000000000000000, -0.000000000000000000 ) ) ;
#134 = DIRECTION ( 'NONE',  ( 0.000000000000000000, 0.000000000000000000, 1.000000000000000000 ) ) ;
#135 = APPROVAL_PERSON_ORGANIZATION ( #96, #173, #304 ) ;
#136 = CARTESIAN_POINT ( 'NONE',  ( 2.999999999999999112, 0.000000000000000000, 10.00000000000000000 ) ) ;
#137 = DIRECTION ( 'NONE',  ( 0.000000000000000000, 0.000000000000000000, 1.000000000000000000 ) ) ;
#138 = CYLINDRICAL_SURFACE ( 'NONE', #297, 12.69999999999999929 ) ;
#139 = CIRCLE ( 'NONE', #113, 12.69999999999999929 ) ;
#140 = CARTESIAN_POINT ( 'NONE',  ( 3.000000000000000000, 0.000000000000000000, 0.000000000000000000 ) ) ;
#141 = AXIS2_PLACEMENT_3D ( 'NONE', #131, #318, #59 ) ;
#142 = EDGE_CURVE ( 'NONE', #205, #177, #242, .T. ) ;
#143 = DIRECTION ( 'NONE',  ( 0.000000000000000000, 0.000000000000000000, 1.000000000000000000 ) ) ;
#144 = CYLINDRICAL_SURFACE ( 'NONE', #5, 12.69999999999999929 ) ;
#145 = CIRCLE ( 'NONE', #28, 12.69999999999999929 ) ;
#146 = APPROVAL_DATE_TIME ( #73, #173 ) ;
#147 = ADVANCED_FACE ( 'NONE', ( #9 ), #316, .F. ) ;
#148 = VERTEX_POINT ( 'NONE', #218 ) ;
#149 = VERTEX_POINT ( 'NONE', #288 ) ;
#150 = PERSON_AND_ORGANIZATION_ROLE ( 'design_owner' ) ;
#151 = VERTEX_POINT ( 'NONE', #237 ) ;
#152 = CALENDAR_DATE ( 2020, 22, 12 ) ;
#153 = ORIENTED_EDGE ( 'NONE', *, *, #244, .F. ) ;
#154 = ORIENTED_EDGE ( 'NONE', *, *, #233, .F. ) ;
#155 = CARTESIAN_POINT ( 'NONE',  ( -2.500000000000000444, 0.000000000000000000, 0.000000000000000000 ) ) ;
#156 = AXIS2_PLACEMENT_3D ( 'NONE', #80, #54, #214 ) ;
#157 = VECTOR ( 'NONE', #291, 1000.000000000000000 ) ;
#158 = PLANE ( 'NONE',  #220 ) ;
#159 = DIRECTION ( 'NONE',  ( -1.000000000000000000, -0.000000000000000000, -0.000000000000000000 ) ) ;
#160 = ORIENTED_EDGE ( 'NONE', *, *, #233, .T. ) ;
#161 = APPROVAL_PERSON_ORGANIZATION ( #121, #115, #45 ) ;
#162 = APPLICATION_CONTEXT ( 'configuration controlled 3d designs of mechanical parts and assemblies' ) ;
#163 = AXIS2_PLACEMENT_3D ( 'NONE', #155, #2, #103 ) ;
#164 = MANIFOLD_SOLID_BREP ( 'Ðý×', #78 ) ;
#165 = DIRECTION ( 'NONE',  ( -1.000000000000000000, -0.000000000000000000, -0.000000000000000000 ) ) ;
#166 = EDGE_CURVE ( 'NONE', #177, #205, #61, .T. ) ;
#167 = CARTESIAN_POINT ( 'NONE',  ( -3.000000000000000444, 1.224646799147353256E-15, -10.00000000000000000 ) ) ;
#168 = DIRECTION ( 'NONE',  ( -1.000000000000000000, 0.000000000000000000, -0.000000000000000000 ) ) ;
#169 = DIRECTION ( 'NONE',  ( -1.000000000000000000, -0.000000000000000000, -0.000000000000000000 ) ) ;
#170 = AXIS2_PLACEMENT_3D ( 'NONE', #240, #36, #58 ) ;
#171 = ADVANCED_BREP_SHAPE_REPRESENTATION ( 'Q-OZHWP-R2-20-488-M', ( #164, #285 ), #90 ) ;
#172 = FACE_BOUND ( 'NONE', #126, .T. ) ;
#173 = APPROVAL ( #281, 'UNSPECIFIED' ) ;
#174 = PERSON_AND_ORGANIZATION ( #222, #125 ) ;
#175 = MECHANICAL_CONTEXT ( 'NONE', #162, 'mechanical' ) ;
#176 = VECTOR ( 'NONE', #83, 1000.000000000000000 ) ;
#177 = VERTEX_POINT ( 'NONE', #57 ) ;
#178 = CC_DESIGN_PERSON_AND_ORGANIZATION_ASSIGNMENT ( #22, #234, ( #320 ) ) ;
#179 = ORIENTED_EDGE ( 'NONE', *, *, #272, .F. ) ;
#180 = ORIENTED_EDGE ( 'NONE', *, *, #184, .T. ) ;
#181 = LOCAL_TIME ( 17, 16, 38.00000000000000000, #52 ) ;
#182 = ORIENTED_EDGE ( 'NONE', *, *, #184, .F. ) ;
#183 = CIRCLE ( 'NONE', #141, 10.00000000000000000 ) ;
#184 = EDGE_CURVE ( 'NONE', #151, #149, #261, .T. ) ;
#185 = DIRECTION ( 'NONE',  ( 0.000000000000000000, 0.000000000000000000, 1.000000000000000000 ) ) ;
#186 = EDGE_CURVE ( 'NONE', #149, #151, #145, .T. ) ;
#187 = PERSON_AND_ORGANIZATION ( #222, #125 ) ;
#188 = DIRECTION ( 'NONE',  ( 0.000000000000000000, 0.000000000000000000, 1.000000000000000000 ) ) ;
#189 = CC_DESIGN_PERSON_AND_ORGANIZATION_ASSIGNMENT ( #7, #35, ( #55 ) ) ;
#190 = DIRECTION ( 'NONE',  ( -1.000000000000000000, -0.000000000000000000, -0.000000000000000000 ) ) ;
#191 = CARTESIAN_POINT ( 'NONE',  ( 2.500000000000000888, 0.000000000000000000, 0.000000000000000000 ) ) ;
#192 = CARTESIAN_POINT ( 'NONE',  ( 2.999999999999999112, 1.224646799147353256E-15, -10.00000000000000000 ) ) ;
#193 = ADVANCED_FACE ( 'NONE', ( #111, #172 ), #40, .F. ) ;
#194 = CARTESIAN_POINT ( 'NONE',  ( -3.000000000000000444, 0.000000000000000000, 10.00000000000000000 ) ) ;
#195 = FACE_OUTER_BOUND ( 'NONE', #72, .T. ) ;
#196 = AXIS2_PLACEMENT_3D ( 'NONE', #79, #159, #185 ) ;
#197 = CC_DESIGN_APPROVAL ( #115, ( #309 ) ) ;
#198 = PLANE ( 'NONE',  #70 ) ;
#199 = DIRECTION ( 'NONE',  ( 0.000000000000000000, 0.000000000000000000, 1.000000000000000000 ) ) ;
#200 = EDGE_CURVE ( 'NONE', #251, #19, #247, .T. ) ;
#201 =( NAMED_UNIT ( * ) PLANE_ANGLE_UNIT ( ) SI_UNIT ( $, .RADIAN. ) );
#202 = EDGE_LOOP ( 'NONE', ( #303, #327, #74, #182 ) ) ;
#203 = ORIENTED_EDGE ( 'NONE', *, *, #166, .F. ) ;
#204 = ADVANCED_FACE ( 'NONE', ( #319 ), #219, .F. ) ;
#205 = VERTEX_POINT ( 'NONE', #249 ) ;
#206 = DATE_AND_TIME ( #152, #43 ) ;
#207 = VERTEX_POINT ( 'NONE', #167 ) ;
#208 = ADVANCED_FACE ( 'NONE', ( #67 ), #138, .T. ) ;
#209 = CARTESIAN_POINT ( 'NONE',  ( 0.000000000000000000, 0.000000000000000000, 0.000000000000000000 ) ) ;
#210 = ORIENTED_EDGE ( 'NONE', *, *, #142, .F. ) ;
#211 = AXIS2_PLACEMENT_3D ( 'NONE', #236, #190, #188 ) ;
#212 = CARTESIAN_POINT ( 'NONE',  ( 2.500000000000000888, 1.224646799147353256E-15, -10.00000000000000000 ) ) ;
#213 = APPROVAL_DATE_TIME ( #317, #293 ) ;
#214 = DIRECTION ( 'NONE',  ( 0.000000000000000000, 0.000000000000000000, -1.000000000000000000 ) ) ;
#215 = SHAPE_DEFINITION_REPRESENTATION ( #271, #171 ) ;
#216 = AXIS2_PLACEMENT_3D ( 'NONE', #32, #289, #30 ) ;
#217 = VERTEX_POINT ( 'NONE', #194 ) ;
#218 = CARTESIAN_POINT ( 'NONE',  ( 2.500000000000000888, 0.000000000000000000, 10.00000000000000000 ) ) ;
#219 = CYLINDRICAL_SURFACE ( 'NONE', #335, 10.00000000000000000 ) ;
#220 = AXIS2_PLACEMENT_3D ( 'NONE', #6, #108, #1 ) ;
#221 = CARTESIAN_POINT ( 'NONE',  ( -2.500000000000000444, 10.00000000000000000, 0.000000000000000000 ) ) ;
#222 = PERSON ( 'UNSPECIFIED', 'UNSPECIFIED', 'UNSPECIFIED', ('UNSPECIFIED'), ('UNSPECIFIED'), ('UNSPECIFIED') ) ;
#223 = CARTESIAN_POINT ( 'NONE',  ( -1.614212418857619014, 0.000000000000000000, 12.69999999999999929 ) ) ;
#224 = EDGE_CURVE ( 'NONE', #207, #217, #315, .T. ) ;
#225 = CARTESIAN_POINT ( 'NONE',  ( -1.614212418857619014, 1.555301434917138433E-15, -12.69999999999999929 ) ) ;
#226 = DIRECTION ( 'NONE',  ( -1.000000000000000000, -0.000000000000000000, -0.000000000000000000 ) ) ;
#227 = ADVANCED_FACE ( 'NONE', ( #64 ), #144, .T. ) ;
#228 = PERSON_AND_ORGANIZATION_ROLE ( 'design_supplier' ) ;
#229 = ORIENTED_EDGE ( 'NONE', *, *, #41, .F. ) ;
#230 = EDGE_LOOP ( 'NONE', ( #99, #301, #308, #129 ) ) ;
#231 = VECTOR ( 'NONE', #165, 1000.000000000000000 ) ;
#232 = EDGE_LOOP ( 'NONE', ( #279, #23, #101, #24 ) ) ;
#233 = EDGE_CURVE ( 'NONE', #47, #253, #139, .T. ) ;
#234 = PERSON_AND_ORGANIZATION_ROLE ( 'creator' ) ;
#235 = EDGE_LOOP ( 'NONE', ( #154, #330 ) ) ;
#236 = CARTESIAN_POINT ( 'NONE',  ( -1.614212418857619014, 0.000000000000000000, 0.000000000000000000 ) ) ;
#237 = CARTESIAN_POINT ( 'NONE',  ( -3.000000000000000000, 1.555301434917138433E-15, -12.69999999999999929 ) ) ;
#238 = APPROVAL_STATUS ( 'not_yet_approved' ) ;
#239 = DIRECTION ( 'NONE',  ( 0.000000000000000000, 0.000000000000000000, 1.000000000000000000 ) ) ;
#240 = CARTESIAN_POINT ( 'NONE',  ( -3.000000000000000000, 10.00000000000000000, 0.000000000000000000 ) ) ;
#241 = AXIS2_PLACEMENT_3D ( 'NONE', #322, #226, #199 ) ;
#242 = CIRCLE ( 'NONE', #163, 10.00000000000000000 ) ;
#243 = CARTESIAN_POINT ( 'NONE',  ( -1.614212418857619014, 0.000000000000000000, 10.00000000000000000 ) ) ;
#244 = EDGE_CURVE ( 'NONE', #47, #149, #295, .T. ) ;
#245 = CARTESIAN_POINT ( 'NONE',  ( -3.000000000000000000, 0.000000000000000000, 0.000000000000000000 ) ) ;
#246 = AXIS2_PLACEMENT_3D ( 'NONE', #264, #133, #239 ) ;
#247 = LINE ( 'NONE', #63, #118 ) ;
#248 = DIRECTION ( 'NONE',  ( -1.000000000000000000, -0.000000000000000000, -0.000000000000000000 ) ) ;
#249 = CARTESIAN_POINT ( 'NONE',  ( -2.500000000000000444, 1.224646799147353256E-15, -10.00000000000000000 ) ) ;
#250 = COORDINATED_UNIVERSAL_TIME_OFFSET ( 8, 0, .AHEAD. ) ;
#251 = VERTEX_POINT ( 'NONE', #192 ) ;
#252 =( NAMED_UNIT ( * ) SI_UNIT ( $, .STERADIAN. ) SOLID_ANGLE_UNIT ( ) );
#253 = VERTEX_POINT ( 'NONE', #12 ) ;
#254 = EDGE_CURVE ( 'NONE', #253, #47, #81, .T. ) ;
#255 = APPLICATION_CONTEXT ( 'configuration controlled 3d designs of mechanical parts and assemblies' ) ;
#256 = APPLICATION_PROTOCOL_DEFINITION ( 'international standard', 'config_control_design', 1994, #255 ) ;
#257 = ORIENTED_EDGE ( 'NONE', *, *, #94, .T. ) ;
#258 = APPROVAL_DATE_TIME ( #206, #115 ) ;
#259 = ORIENTED_EDGE ( 'NONE', *, *, #112, .T. ) ;
#260 = ORIENTED_EDGE ( 'NONE', *, *, #25, .F. ) ;
#261 = CIRCLE ( 'NONE', #246, 12.69999999999999929 ) ;
#262 = LOCAL_TIME ( 17, 16, 38.00000000000000000, #102 ) ;
#263 = LINE ( 'NONE', #243, #231 ) ;
#264 = CARTESIAN_POINT ( 'NONE',  ( -3.000000000000000000, 0.000000000000000000, 0.000000000000000000 ) ) ;
#265 = PLANE ( 'NONE',  #170 ) ;
#266 = LOCAL_TIME ( 17, 16, 38.00000000000000000, #123 ) ;
#267 = FACE_OUTER_BOUND ( 'NONE', #53, .T. ) ;
#268 = CIRCLE ( 'NONE', #216, 10.00000000000000000 ) ;
#269 = CARTESIAN_POINT ( 'NONE',  ( 3.000000000000000000, 0.000000000000000000, 0.000000000000000000 ) ) ;
#270 = CARTESIAN_POINT ( 'NONE',  ( -1.614212418857619014, 0.000000000000000000, 0.000000000000000000 ) ) ;
#271 = PRODUCT_DEFINITION_SHAPE ( 'NONE', 'NONE',  #320 ) ;
#272 = EDGE_CURVE ( 'NONE', #217, #207, #276, .T. ) ;
#273 = DIRECTION ( 'NONE',  ( -0.000000000000000000, 0.000000000000000000, 1.000000000000000000 ) ) ;
#274 = CARTESIAN_POINT ( 'NONE',  ( -1.614212418857619014, 0.000000000000000000, 0.000000000000000000 ) ) ;
#275 = DIRECTION ( 'NONE',  ( 0.000000000000000000, 0.000000000000000000, 1.000000000000000000 ) ) ;
#276 = CIRCLE ( 'NONE', #241, 10.00000000000000000 ) ;
#277 = LOCAL_TIME ( 17, 16, 38.00000000000000000, #26 ) ;
#278 = CALENDAR_DATE ( 2020, 22, 12 ) ;
#279 = ORIENTED_EDGE ( 'NONE', *, *, #94, .F. ) ;
#280 = CC_DESIGN_DATE_AND_TIME_ASSIGNMENT ( #132, #82, ( #55 ) ) ;
#281 = APPROVAL_STATUS ( 'not_yet_approved' ) ;
#282 = ORIENTED_EDGE ( 'NONE', *, *, #166, .T. ) ;
#283 = ORIENTED_EDGE ( 'NONE', *, *, #224, .T. ) ;
#284 = AXIS2_PLACEMENT_3D ( 'NONE', #42, #120, #294 ) ;
#285 = AXIS2_PLACEMENT_3D ( 'NONE', #209, #329, #302 ) ;
#286 = PERSON_AND_ORGANIZATION ( #222, #125 ) ;
#287 = ORIENTED_EDGE ( 'NONE', *, *, #186, .F. ) ;
#288 = CARTESIAN_POINT ( 'NONE',  ( -3.000000000000000000, 0.000000000000000000, 12.69999999999999929 ) ) ;
#289 = DIRECTION ( 'NONE',  ( -1.000000000000000000, -0.000000000000000000, -0.000000000000000000 ) ) ;
#290 = FACE_OUTER_BOUND ( 'NONE', #76, .T. ) ;
#291 = DIRECTION ( 'NONE',  ( -1.000000000000000000, -0.000000000000000000, -0.000000000000000000 ) ) ;
#292 = DIRECTION ( 'NONE',  ( -1.000000000000000000, -0.000000000000000000, -0.000000000000000000 ) ) ;
#293 = APPROVAL ( #238, 'UNSPECIFIED' ) ;
#294 = DIRECTION ( 'NONE',  ( 0.000000000000000000, 0.000000000000000000, 1.000000000000000000 ) ) ;
#295 = LINE ( 'NONE', #223, #86 ) ;
#296 = ADVANCED_FACE ( 'NONE', ( #114 ), #37, .F. ) ;
#297 = AXIS2_PLACEMENT_3D ( 'NONE', #274, #169, #143 ) ;
#298 = DIRECTION ( 'NONE',  ( -1.000000000000000000, -0.000000000000000000, -0.000000000000000000 ) ) ;
#299 = DIRECTION ( 'NONE',  ( 0.000000000000000000, 0.000000000000000000, 1.000000000000000000 ) ) ;
#300 = CALENDAR_DATE ( 2020, 22, 12 ) ;
#301 = ORIENTED_EDGE ( 'NONE', *, *, #112, .F. ) ;
#302 = DIRECTION ( 'NONE',  ( 1.000000000000000000, 0.000000000000000000, 0.000000000000000000 ) ) ;
#303 = ORIENTED_EDGE ( 'NONE', *, *, #331, .F. ) ;
#304 = APPROVAL_ROLE ( '' ) ;
#305 = ORIENTED_EDGE ( 'NONE', *, *, #142, .T. ) ;
#306 = UNCERTAINTY_MEASURE_WITH_UNIT (LENGTH_MEASURE( 1.000000000000000082E-05 ), #128, 'distance_accuracy_value', 'NONE');
#307 = APPLICATION_PROTOCOL_DEFINITION ( 'international standard', 'config_control_design', 1994, #162 ) ;
#308 = ORIENTED_EDGE ( 'NONE', *, *, #20, .T. ) ;
#309 = PRODUCT_DEFINITION_FORMATION_WITH_SPECIFIED_SOURCE ( 'ANY', '', #16, .NOT_KNOWN. ) ;
#310 = DATE_AND_TIME ( #278, #181 ) ;
#311 = ORIENTED_EDGE ( 'NONE', *, *, #75, .F. ) ;
#312 = CARTESIAN_POINT ( 'NONE',  ( 2.999999999999999112, 0.000000000000000000, 0.000000000000000000 ) ) ;
#313 = ADVANCED_FACE ( 'NONE', ( #195 ), #198, .F. ) ;
#314 = CARTESIAN_POINT ( 'NONE',  ( -1.614212418857619014, 0.000000000000000000, 10.00000000000000000 ) ) ;
#315 = CIRCLE ( 'NONE', #284, 10.00000000000000000 ) ;
#316 = CYLINDRICAL_SURFACE ( 'NONE', #196, 10.00000000000000000 ) ;
#317 = DATE_AND_TIME ( #105, #262 ) ;
#318 = DIRECTION ( 'NONE',  ( -1.000000000000000000, -0.000000000000000000, -0.000000000000000000 ) ) ;
#319 = FACE_OUTER_BOUND ( 'NONE', #232, .T. ) ;
#320 = PRODUCT_DEFINITION ( 'UNKNOWN', '', #309, #50 ) ;
#321 = DIRECTION ( 'NONE',  ( 0.000000000000000000, 0.000000000000000000, 1.000000000000000000 ) ) ;
#322 = CARTESIAN_POINT ( 'NONE',  ( -3.000000000000000444, 0.000000000000000000, 0.000000000000000000 ) ) ;
#323 = CARTESIAN_POINT ( 'NONE',  ( 2.999999999999999112, 12.69999999999999929, 0.000000000000000000 ) ) ;
#324 = CC_DESIGN_APPROVAL ( #173, ( #320 ) ) ;
#325 = DIRECTION ( 'NONE',  ( -1.000000000000000000, -0.000000000000000000, -0.000000000000000000 ) ) ;
#326 = EDGE_LOOP ( 'NONE', ( #179, #122 ) ) ;
#327 = ORIENTED_EDGE ( 'NONE', *, *, #254, .T. ) ;
#328 = CC_DESIGN_PERSON_AND_ORGANIZATION_ASSIGNMENT ( #174, #228, ( #309 ) ) ;
#329 = DIRECTION ( 'NONE',  ( 0.000000000000000000, 0.000000000000000000, 1.000000000000000000 ) ) ;
#330 = ORIENTED_EDGE ( 'NONE', *, *, #254, .F. ) ;
#331 = EDGE_CURVE ( 'NONE', #253, #151, #10, .T. ) ;
#332 = EDGE_LOOP ( 'NONE', ( #282, #334, #283, #124 ) ) ;
#333 = PERSON_AND_ORGANIZATION ( #222, #125 ) ;
#334 = ORIENTED_EDGE ( 'NONE', *, *, #25, .T. ) ;
#335 = AXIS2_PLACEMENT_3D ( 'NONE', #92, #13, #299 ) ;
ENDSEC;
END-ISO-10303-21;
